  0
SECTION
  2
HEADER
  9
$ACADVER
  1
AC1015
  9
$ACADMAINTVER
 70
     6
  9
$DWGCODEPAGE
  3
ANSI_1254
  9
$INSBASE
 10
0.0
 20
0.0
 30
0.0
  9
$EXTMIN
 10
0.0
 20
0.0
 30
0.0
  9
$EXTMAX
 10
279.4
 20
215.9
 30
0.0
  9
$LIMMIN
 10
0.0
 20
0.0
  9
$LIMMAX
 10
279.4
 20
215.9
  9
$ORTHOMODE
 70
     0
  9
$REGENMODE
 70
     1
  9
$FILLMODE
 70
     1
  9
$QTEXTMODE
 70
     0
  9
$MIRRTEXT
 70
     1
  9
$LTSCALE
 40
1.0
  9
$ATTMODE
 70
     1
  9
$TEXTSIZE
 40
3.5
  9
$TRACEWID
 40
1.0
  9
$TEXTSTYLE
  7
Standard
  9
$CLAYER
  8
0
  9
$CELTYPE
  6
ByLayer
  9
$CECOLOR
 62
   256
  9
$CELTSCALE
 40
1.0
  9
$DISPSILH
 70
     0
  9
$DIMSCALE
 40
1.0
  9
$DIMASZ
 40
3.5
  9
$DIMEXO
 40
1.0
  9
$DIMDLI
 40
3.75
  9
$DIMRND
 40
0.0
  9
$DIMDLE
 40
0.0
  9
$DIMEXE
 40
1.0
  9
$DIMTP
 40
0.0
  9
$DIMTM
 40
0.0
  9
$DIMTXT
 40
3.5
  9
$DIMCEN
 40
2.5
  9
$DIMTSZ
 40
0.0
  9
$DIMTOL
 70
     0
  9
$DIMLIM
 70
     0
  9
$DIMTIH
 70
     1
  9
$DIMTOH
 70
     1
  9
$DIMSE1
 70
     0
  9
$DIMSE2
 70
     0
  9
$DIMTAD
 70
     1
  9
$DIMZIN
 70
     0
  9
$DIMBLK
  1

  9
$DIMASO
 70
     1
  9
$DIMSHO
 70
     1
  9
$DIMPOST
  1

  9
$DIMAPOST
  1

  9
$DIMALT
 70
     0
  9
$DIMALTD
 70
     3
  9
$DIMALTF
 40
0.0393700787
  9
$DIMLFAC
 40
1.0
  9
$DIMTOFL
 70
     1
  9
$DIMTVP
 40
0.0
  9
$DIMTIX
 70
     0
  9
$DIMSOXD
 70
     0
  9
$DIMSAH
 70
     0
  9
$DIMBLK1
  1

  9
$DIMBLK2
  1

  9
$DIMSTYLE
  2
ISO-25
  9
$DIMCLRD
 70
     0
  9
$DIMCLRE
 70
     0
  9
$DIMCLRT
 70
     0
  9
$DIMTFAC
 40
1.0
  9
$DIMGAP
 40
1.524
  9
$DIMJUST
 70
     0
  9
$DIMSD1
 70
     0
  9
$DIMSD2
 70
     0
  9
$DIMTOLJ
 70
     0
  9
$DIMTZIN
 70
     0
  9
$DIMALTZ
 70
     0
  9
$DIMALTTZ
 70
     0
  9
$DIMUPT
 70
     0
  9
$DIMDEC
 70
     2
  9
$DIMTDEC
 70
     2
  9
$DIMALTU
 70
     2
  9
$DIMALTTD
 70
     3
  9
$DIMTXSTY
  7
Standard
  9
$DIMAUNIT
 70
     0
  9
$DIMADEC
 70
     2
  9
$DIMALTRND
 40
0.0
  9
$DIMAZIN
 70
     0
  9
$DIMDSEP
 70
    44
  9
$DIMATFIT
 70
     3
  9
$DIMFRAC
 70
     0
  9
$DIMLDRBLK
  1

  9
$DIMLUNIT
 70
     2
  9
$DIMLWD
 70
    -2
  9
$DIMLWE
 70
    -2
  9
$DIMTMOVE
 70
     0
  9
$LUNITS
 70
     2
  9
$LUPREC
 70
     2
  9
$SKETCHINC
 40
1.0
  9
$FILLETRAD
 40
10.0
  9
$AUNITS
 70
     0
  9
$AUPREC
 70
     2
  9
$MENU
  1
.
  9
$ELEVATION
 40
0.0
  9
$PELEVATION
 40
0.0
  9
$THICKNESS
 40
0.0
  9
$LIMCHECK
 70
     0
  9
$CHAMFERA
 40
0.0
  9
$CHAMFERB
 40
0.0
  9
$CHAMFERC
 40
0.0
  9
$CHAMFERD
 40
0.0
  9
$SKPOLY
 70
     0
  9
$TDCREATE
 40
2460682.519597963
  9
$TDUCREATE
 40
2460682.394597963
  9
$TDUPDATE
 40
2460682.519598275
  9
$TDUUPDATE
 40
2460682.394598275
  9
$TDINDWG
 40
0.0000000116
  9
$TDUSRTIMER
 40
0.0000000116
  9
$USRTIMER
 70
     1
  9
$ANGBASE
 50
0.0
  9
$ANGDIR
 70
     0
  9
$PDMODE
 70
     0
  9
$PDSIZE
 40
-1.0
  9
$PLINEWID
 40
0.0
  9
$SPLFRAME
 70
     0
  9
$SPLINETYPE
 70
     6
  9
$SPLINESEGS
 70
     8
  9
$HANDSEED
  5
BF
  9
$SURFTAB1
 70
     6
  9
$SURFTAB2
 70
     6
  9
$SURFTYPE
 70
     6
  9
$SURFU
 70
     6
  9
$SURFV
 70
     6
  9
$UCSBASE
  2

  9
$UCSNAME
  2

  9
$UCSORG
 10
0.0
 20
0.0
 30
0.0
  9
$UCSXDIR
 10
1.0
 20
0.0
 30
0.0
  9
$UCSYDIR
 10
0.0
 20
1.0
 30
0.0
  9
$UCSORTHOREF
  2

  9
$UCSORTHOVIEW
 70
     0
  9
$UCSORGTOP
 10
0.0
 20
0.0
 30
0.0
  9
$UCSORGBOTTOM
 10
0.0
 20
0.0
 30
0.0
  9
$UCSORGLEFT
 10
0.0
 20
0.0
 30
0.0
  9
$UCSORGRIGHT
 10
0.0
 20
0.0
 30
0.0
  9
$UCSORGFRONT
 10
0.0
 20
0.0
 30
0.0
  9
$UCSORGBACK
 10
0.0
 20
0.0
 30
0.0
  9
$PUCSBASE
  2

  9
$PUCSNAME
  2

  9
$PUCSORG
 10
0.0
 20
0.0
 30
0.0
  9
$PUCSXDIR
 10
1.0
 20
0.0
 30
0.0
  9
$PUCSYDIR
 10
0.0
 20
1.0
 30
0.0
  9
$PUCSORTHOREF
  2

  9
$PUCSORTHOVIEW
 70
     0
  9
$PUCSORGTOP
 10
0.0
 20
0.0
 30
0.0
  9
$PUCSORGBOTTOM
 10
0.0
 20
0.0
 30
0.0
  9
$PUCSORGLEFT
 10
0.0
 20
0.0
 30
0.0
  9
$PUCSORGRIGHT
 10
0.0
 20
0.0
 30
0.0
  9
$PUCSORGFRONT
 10
0.0
 20
0.0
 30
0.0
  9
$PUCSORGBACK
 10
0.0
 20
0.0
 30
0.0
  9
$USERI1
 70
     0
  9
$USERI2
 70
     0
  9
$USERI3
 70
     0
  9
$USERI4
 70
     0
  9
$USERI5
 70
     0
  9
$USERR1
 40
0.0
  9
$USERR2
 40
0.0
  9
$USERR3
 40
0.0
  9
$USERR4
 40
0.0
  9
$USERR5
 40
0.0
  9
$WORLDVIEW
 70
     1
  9
$SHADEDGE
 70
     3
  9
$SHADEDIF
 70
    70
  9
$TILEMODE
 70
     1
  9
$MAXACTVP
 70
    64
  9
$PINSBASE
 10
0.0
 20
0.0
 30
0.0
  9
$PLIMCHECK
 70
     0
  9
$PEXTMIN
 10
1.0000000000E+20
 20
1.0000000000E+20
 30
1.0000000000E+20
  9
$PEXTMAX
 10
-1.0000000000E+20
 20
-1.0000000000E+20
 30
-1.0000000000E+20
  9
$PLIMMIN
 10
0.0
 20
0.0
  9
$PLIMMAX
 10
420.0
 20
297.0
  9
$UNITMODE
 70
     0
  9
$VISRETAIN
 70
     1
  9
$PLINEGEN
 70
     0
  9
$PSLTSCALE
 70
     1
  9
$TREEDEPTH
 70
  3020
  9
$CMLSTYLE
  2
Standard
  9
$CMLJUST
 70
     0
  9
$CMLSCALE
 40
20.0
  9
$PROXYGRAPHICS
 70
     1
  9
$MEASUREMENT
 70
     1
  9
$CELWEIGHT
370
    -1
  9
$ENDCAPS
280
     0
  9
$JOINSTYLE
280
     0
  9
$LWDISPLAY
290
     1
  9
$INSUNITS
 70
     4
  9
$HYPERLINKBASE
  1

  9
$STYLESHEET
  1

  9
$XEDIT
290
     1
  9
$CEPSNTYPE
380
     0
  9
$PSTYLEMODE
290
     1
  9
$FINGERPRINTGUID
  2
{e14cdbb7-0a91-4c48-9726-c4d28ef05faa}
  9
$VERSIONGUID
  2
{FAEB1C32-E019-11D5-929B-00C0DF256EC4}
  9
$EXTNAMES
290
     1
  9
$PSVPSCALE
 40
0.0
  9
$OLESTARTUP
290
     0
  0
ENDSEC
  0
SECTION
  2
CLASSES
  0
CLASS
  1
ACDBDICTIONARYWDFLT
  2
AcDbDictionaryWithDefault
  3
ObjectDBX Classes
 90
        0
280
     0
281
     0
  0
CLASS
  1
VISUALSTYLE
  2
AcDbVisualStyle
  3
ObjectDBX Classes
 90
     4095
280
     0
281
     0
  0
CLASS
  1
MATERIAL
  2
AcDbMaterial
  3
ObjectDBX Classes
 90
     1153
280
     0
281
     0
  0
CLASS
  1
SCALE
  2
AcDbScale
  3
ObjectDBX Classes
 90
     1153
280
     0
281
     0
  0
CLASS
  1
TABLESTYLE
  2
AcDbTableStyle
  3
ObjectDBX Classes
 90
     4095
280
     0
281
     0
  0
CLASS
  1
MLEADERSTYLE
  2
AcDbMLeaderStyle
  3
ACDB_MLEADERSTYLE_CLASS
 90
     4095
280
     0
281
     0
  0
CLASS
  1
SUN
  2
AcDbSun
  3
SCENEOE
 90
     1153
280
     0
281
     0
  0
CLASS
  1
ACDBPLACEHOLDER
  2
AcDbPlaceHolder
  3
ObjectDBX Classes
 90
        0
280
     0
281
     0
  0
CLASS
  1
LAYOUT
  2
AcDbLayout
  3
ObjectDBX Classes
 90
        0
280
     0
281
     0
  0
ENDSEC
  0
SECTION
  2
TABLES
  0
TABLE
  2
VPORT
  5
8
330
0
100
AcDbSymbolTable
 70
     1
  0
VPORT
  5
29
330
8
100
AcDbSymbolTableRecord
100
AcDbViewportTableRecord
  2
*Active
 70
     0
 10
0.0
 20
0.0
 11
1.0
 21
1.0
 12
139.7
 22
107.95
 13
0.0
 23
0.0
 14
10.0
 24
10.0
 15
10.0
 25
10.0
 16
0.0
 26
0.0
 36
1.0
 17
0.0
 27
0.0
 37
0.0
 40
215.9
 41
1.2941176471
 42
50.0
 43
0.0
 44
0.0
 50
0.0
 51
0.0
 71
     0
 72
  2000
 73
     1
 74
     3
 75
     0
 76
     0
 77
     0
 78
     0
281
     0
 65
     1
110
0.0
120
0.0
130
0.0
111
1.0
121
0.0
131
0.0
112
0.0
122
1.0
132
0.0
 79
     0
146
0.0
  0
ENDTAB
  0
TABLE
  2
LTYPE
  5
5
330
0
100
AcDbSymbolTable
 70
     6
  0
LTYPE
  5
14
330
5
100
AcDbSymbolTableRecord
100
AcDbLinetypeTableRecord
  2
ByBlock
 70
     0
  3

 72
    65
 73
     0
 40
0.0
  0
LTYPE
  5
15
330
5
100
AcDbSymbolTableRecord
100
AcDbLinetypeTableRecord
  2
ByLayer
 70
     0
  3

 72
    65
 73
     0
 40
0.0
  0
LTYPE
  5
16
330
5
100
AcDbSymbolTableRecord
100
AcDbLinetypeTableRecord
  2
Continuous
 70
     0
  3
Solid line
 72
    65
 73
     0
 40
0.0
  0
LTYPE
  5
6E
330
5
100
AcDbSymbolTableRecord
100
AcDbLinetypeTableRecord
  2
HIDDEN
 70
     0
  3
Hidden __ __ __ __ __ __ __ __ __ __ __ __ __ __
 72
    65
 73
     2
 40
1.905
 49
1.27
 74
     0
 49
-0.635
 74
     0
  0
LTYPE
  5
6F
330
5
100
AcDbSymbolTableRecord
100
AcDbLinetypeTableRecord
  2
PHANTOM
 70
     0
  3
Phantom ______  __  __  ______  __  __  ______
 72
    65
 73
     6
 40
12.7
 49
6.35
 74
     0
 49
-1.27
 74
     0
 49
1.27
 74
     0
 49
-1.27
 74
     0
 49
1.27
 74
     0
 49
-1.27
 74
     0
  0
LTYPE
  5
70
330
5
100
AcDbSymbolTableRecord
100
AcDbLinetypeTableRecord
  2
CENTER
 70
     0
  3
Center ____ _ ____ _ ____ _ ____ _ ____ _ ____
 72
    65
 73
     4
 40
10.16
 49
6.35
 74
     0
 49
-1.27
 74
     0
 49
1.27
 74
     0
 49
-1.27
 74
     0
  0
LTYPE
  5
71
330
5
100
AcDbSymbolTableRecord
100
AcDbLinetypeTableRecord
  2
CENTERX2
 70
     0
  3
Center (2x) ________  __  ________  __  _____
 72
    65
 73
     4
 40
20.32
 49
12.7
 74
     0
 49
-2.54
 74
     0
 49
2.54
 74
     0
 49
-2.54
 74
     0
  0
LTYPE
  5
72
330
5
100
AcDbSymbolTableRecord
100
AcDbLinetypeTableRecord
  2
DOT2
 70
     0
  3
Dot (.5x) ........................................
 72
    65
 73
     2
 40
0.635
 49
0.0
 74
     0
 49
-0.635
 74
     0
  0
ENDTAB
  0
TABLE
  2
LAYER
  5
2
330
0
100
AcDbSymbolTable
 70
    17
  0
LAYER
  5
10
330
2
100
AcDbSymbolTableRecord
100
AcDbLayerTableRecord
  2
0
 70
     0
 62
     7
  6
Continuous
370
    -3
390
F
  0
LAYER
  5
73
330
2
100
AcDbSymbolTableRecord
100
AcDbLayerTableRecord
  2
FORMAT
 70
     0
 62
     7
  6
Continuous
370
    -3
390
F
  0
LAYER
  5
74
330
2
100
AcDbSymbolTableRecord
100
AcDbLayerTableRecord
  2
YARDIMCI_GEOMETRI
 70
     0
 62
    -6
  6
Continuous
290
     0
370
    -3
390
F
  0
LAYER
  5
75
330
2
100
AcDbSymbolTableRecord
100
AcDbLayerTableRecord
  2
SAYFA_CERCEVESI
 70
     0
 62
     7
  6
Continuous
370
    25
390
F
  0
LAYER
  5
76
330
2
100
AcDbSymbolTableRecord
100
AcDbLayerTableRecord
  2
ANTET
 70
     0
 62
     7
  6
Continuous
370
    -3
390
F
  0
LAYER
  5
77
330
2
100
AcDbSymbolTableRecord
100
AcDbLayerTableRecord
  2
OLCU
 70
     0
 62
   150
  6
Continuous
370
    -3
390
F
  0
LAYER
  5
78
330
2
100
AcDbSymbolTableRecord
100
AcDbLayerTableRecord
  2
METIN
 70
     0
 62
    96
  6
Continuous
370
    -3
390
F
  0
LAYER
  5
79
330
2
100
AcDbSymbolTableRecord
100
AcDbLayerTableRecord
  2
BALON
 70
     0
 62
     5
  6
Continuous
370
    -3
390
F
  0
LAYER
  5
7A
330
2
100
AcDbSymbolTableRecord
100
AcDbLayerTableRecord
  2
VURGU
 70
     0
 62
     7
  6
Continuous
370
    -3
390
F
  0
LAYER
  5
7B
330
2
100
AcDbSymbolTableRecord
100
AcDbLayerTableRecord
  2
SILIK
 70
     0
 62
     7
  6
Continuous
370
    -3
390
F
  0
LAYER
  5
7C
330
2
100
AcDbSymbolTableRecord
100
AcDbLayerTableRecord
  2
MODEL
 70
     0
 62
     7
  6
Continuous
370
    -3
390
F
  0
LAYER
  5
7D
330
2
100
AcDbSymbolTableRecord
100
AcDbLayerTableRecord
  2
DETAYLANDıRMA
 70
     0
 62
   190
  6
Continuous
370
    -3
390
F
  0
LAYER
  5
7E
330
2
100
AcDbSymbolTableRecord
100
AcDbLayerTableRecord
  2
TOLERANS
 70
     0
 62
   230
  6
Continuous
370
    -3
390
F
  0
LAYER
  5
7F
330
2
100
AcDbSymbolTableRecord
100
AcDbLayerTableRecord
  2
MERKEZ_CIZGILERI
 70
     0
 62
    30
  6
Continuous
370
    -3
390
F
  0
LAYER
  5
80
330
2
100
AcDbSymbolTableRecord
100
AcDbLayerTableRecord
  2
KESIT-DETAY_CIZGILERI
 70
     0
 62
     7
  6
Continuous
370
    -3
390
F
  0
LAYER
  5
81
330
2
100
AcDbSymbolTableRecord
100
AcDbLayerTableRecord
  2
\U+041E\U+0421\U+0415\U+0412\U+042B\U+0415
 70
     0
 62
     7
  6
Continuous
370
    -3
390
F
  0
LAYER
  5
82
330
2
100
AcDbSymbolTableRecord
100
AcDbLayerTableRecord
  2
\U+0412\U+041E\U+0414\U+042F\U+041D\U+042B\U+0415_\U+0417\U+041D\U+0410\U+041A\U+0418
 70
     0
 62
    11
  6
Continuous
370
    -3
390
F
  0
ENDTAB
  0
TABLE
  2
STYLE
  5
3
330
0
100
AcDbSymbolTable
 70
     1
  0
STYLE
  5
11
330
3
100
AcDbSymbolTableRecord
100
AcDbTextStyleTableRecord
  2
Standard
 70
     0
 40
0.0
 41
1.0
 50
0.0
 71
     0
 42
3.5
  3
txt
  4

  0
ENDTAB
  0
TABLE
  2
VIEW
  5
6
330
0
100
AcDbSymbolTable
 70
     0
  0
ENDTAB
  0
TABLE
  2
UCS
  5
7
330
0
100
AcDbSymbolTable
 70
     0
  0
ENDTAB
  0
TABLE
  2
APPID
  5
9
330
0
100
AcDbSymbolTable
 70
     1
  0
APPID
  5
12
330
9
100
AcDbSymbolTableRecord
100
AcDbRegAppTableRecord
  2
ACAD
 70
     0
  0
ENDTAB
  0
TABLE
  2
DIMSTYLE
  5
A
330
0
100
AcDbSymbolTable
 70
     1
100
AcDbDimStyleTable
  0
DIMSTYLE
105
27
330
A
100
AcDbSymbolTableRecord
100
AcDbDimStyleTableRecord
  2
ISO-25
 70
     0
 41
2.5
 42
0.625
 43
3.75
 44
1.25
 73
     0
 74
     0
 77
     1
 78
     8
140
2.5
141
2.5
143
0.0393700787
147
0.625
171
     3
172
     1
178
     0
271
     2
272
     2
274
     3
278
    44
283
     0
284
     8
340
11
  0
ENDTAB
  0
TABLE
  2
BLOCK_RECORD
  5
1
330
0
100
AcDbSymbolTable
 70
     2
  0
BLOCK_RECORD
  5
1F
330
1
100
AcDbSymbolTableRecord
100
AcDbBlockTableRecord
  2
*Model_Space
340
22
  0
BLOCK_RECORD
  5
1B
330
1
100
AcDbSymbolTableRecord
100
AcDbBlockTableRecord
  2
*Paper_Space
340
1E
  0
BLOCK_RECORD
  5
23
330
1
100
AcDbSymbolTableRecord
100
AcDbBlockTableRecord
  2
*Paper_Space0
340
26
  0
BLOCK_RECORD
  5
A2
330
1
100
AcDbSymbolTableRecord
100
AcDbBlockTableRecord
  2
SW_CENTERMARKSYMBOL_0
340
0
102
{BLKREFS
331
AD
102
}
  0
ENDTAB
  0
ENDSEC
  0
SECTION
  2
BLOCKS
  0
BLOCK
  5
20
330
1F
100
AcDbEntity
  8
0
100
AcDbBlockBegin
  2
*Model_Space
 70
     0
 10
0.0
 20
0.0
 30
0.0
  3
*Model_Space
  1

  0
ENDBLK
  5
21
330
1F
100
AcDbEntity
  8
0
100
AcDbBlockEnd
  0
BLOCK
  5
1C
330
1B
100
AcDbEntity
 67
     1
  8
0
100
AcDbBlockBegin
  2
*Paper_Space
 70
     0
 10
0.0
 20
0.0
 30
0.0
  3
*Paper_Space
  1

  0
ENDBLK
  5
1D
330
1B
100
AcDbEntity
 67
     1
  8
0
100
AcDbBlockEnd
  0
BLOCK
  5
24
330
23
100
AcDbEntity
  8
0
100
AcDbBlockBegin
  2
*Paper_Space0
 70
     0
 10
0.0
 20
0.0
 30
0.0
  3
*Paper_Space0
  1

  0
ENDBLK
  5
25
330
23
100
AcDbEntity
  8
0
100
AcDbBlockEnd
  0
BLOCK
  5
A3
330
A2
100
AcDbEntity
  8
0
100
AcDbBlockBegin
  2
SW_CENTERMARKSYMBOL_0
 70
     0
 10
0.0
 20
0.0
 30
0.0
  3
SW_CENTERMARKSYMBOL_0
  1

  0
LINE
  5
A5
330
A2
100
AcDbEntity
  8
FORMAT
 62
     0
100
AcDbLine
 10
0.0
 20
0.0
 30
0.0
 11
0.0
 21
2.5
 31
0.0
  0
LINE
  5
A6
330
A2
100
AcDbEntity
  8
FORMAT
 62
     0
100
AcDbLine
 10
0.0
 20
0.0
 30
0.0
 11
-2.5
 21
0.0
 31
0.0
  0
LINE
  5
A7
330
A2
100
AcDbEntity
  8
FORMAT
 62
     0
100
AcDbLine
 10
0.0
 20
0.0
 30
0.0
 11
0.0
 21
-2.5
 31
0.0
  0
LINE
  5
A8
330
A2
100
AcDbEntity
  8
FORMAT
 62
     0
100
AcDbLine
 10
0.0
 20
0.0
 30
0.0
 11
2.5
 21
0.0
 31
0.0
  0
LINE
  5
A9
330
A2
100
AcDbEntity
  8
FORMAT
 62
     0
100
AcDbLine
 10
0.0
 20
5.0
 30
0.0
 11
0.0
 21
127.5
 31
0.0
  0
LINE
  5
AA
330
A2
100
AcDbEntity
  8
FORMAT
 62
     0
100
AcDbLine
 10
-5.0
 20
0.0
 30
0.0
 11
-127.5
 21
0.0
 31
0.0
  0
LINE
  5
AB
330
A2
100
AcDbEntity
  8
FORMAT
 62
     0
100
AcDbLine
 10
0.0
 20
-5.0
 30
0.0
 11
0.0
 21
-127.5
 31
0.0
  0
LINE
  5
AC
330
A2
100
AcDbEntity
  8
FORMAT
 62
     0
100
AcDbLine
 10
5.0
 20
0.0
 30
0.0
 11
127.5
 21
0.0
 31
0.0
  0
ENDBLK
  5
A4
330
A2
100
AcDbEntity
  8
0
100
AcDbBlockEnd
  0
ENDSEC
  0
SECTION
  2
ENTITIES
  0
LINE
  5
83
330
1F
100
AcDbEntity
  8
0
  6
Continuous
 62
     7
370
    25
100
AcDbLine
 10
119.0951578148
 20
381.572613499
 30
0.0
 11
-6.1710896467
 21
164.6051084221
 31
0.0
  0
LINE
  5
84
330
1F
100
AcDbEntity
  8
0
  6
Continuous
 62
     7
370
    25
100
AcDbLine
 10
243.8289103533
 20
97.6178103143
 30
0.0
 11
335.601508761
 21
256.572613499
 31
0.0
  0
LINE
  5
85
330
1F
100
AcDbEntity
  8
0
  6
Continuous
 62
     7
370
    25
100
AcDbLine
 10
-6.1710896467
 20
164.6051084221
 30
0.0
 11
-6.1710896467
 21
-85.927386501
 31
0.0
  0
LINE
  5
86
330
1F
100
AcDbEntity
  8
0
  6
Continuous
 62
     7
370
    25
100
AcDbLine
 10
243.8289103533
 20
-85.927386501
 30
0.0
 11
243.8289103533
 21
97.6178103143
 31
0.0
  0
LINE
  5
87
330
1F
100
AcDbEntity
  8
0
  6
Continuous
 62
     7
370
    25
100
AcDbLine
 10
227.3483332879
 20
319.072613499
 30
0.0
 11
335.601508761
 21
256.572613499
 31
0.0
  0
LINE
  5
88
330
1F
100
AcDbEntity
  8
0
  6
Continuous
 62
     7
370
    25
100
AcDbLine
 10
119.0951578148
 20
381.572613499
 30
0.0
 11
227.3483332879
 21
319.072613499
 31
0.0
  0
LINE
  5
89
330
1F
100
AcDbEntity
  8
0
  6
Continuous
 62
     7
370
    25
100
AcDbLine
 10
243.8289103533
 20
97.6178103143
 30
0.0
 11
-6.1710896467
 21
164.6051084221
 31
0.0
  0
LINE
  5
8A
330
1F
100
AcDbEntity
  8
0
  6
Continuous
 62
     7
370
    25
100
AcDbLine
 10
118.8289103533
 20
-85.927386501
 30
0.0
 11
243.8289103533
 21
-85.927386501
 31
0.0
  0
LINE
  5
8B
330
1F
100
AcDbEntity
  8
0
  6
Continuous
 62
     7
370
    25
100
AcDbLine
 10
-6.1710896467
 20
-85.927386501
 30
0.0
 11
118.8289103533
 21
-85.927386501
 31
0.0
  0
LINE
  5
8C
330
1F
100
AcDbEntity
  8
0
  6
Continuous
 62
     7
370
    25
100
AcDbLine
 10
-368.8702052723
 20
319.072613499
 30
0.0
 11
-368.8702052723
 21
131.1114593682
 31
0.0
  0
LINE
  5
8D
330
1F
100
AcDbEntity
  8
0
  6
Continuous
 62
     7
370
    25
100
AcDbLine
 10
-118.8702052723
 20
131.1114593682
 30
0.0
 11
-118.8702052723
 21
319.072613499
 31
0.0
  0
LINE
  5
8E
330
1F
100
AcDbEntity
  8
0
  6
Continuous
 62
     7
370
    25
100
AcDbLine
 10
-368.8702052723
 20
131.1114593682
 30
0.0
 11
-368.8702052723
 21
-85.927386501
 31
0.0
  0
LINE
  5
8F
330
1F
100
AcDbEntity
  8
0
  6
Continuous
 62
     7
370
    25
100
AcDbLine
 10
-118.8702052723
 20
-85.927386501
 30
0.0
 11
-118.8702052723
 21
131.1114593682
 31
0.0
  0
LWPOLYLINE
  5
90
330
1F
100
AcDbEntity
  8
0
  6
Continuous
 62
     7
370
    25
100
AcDbPolyline
 90
      119
 70
   128
 43
0.0
 10
-368.8702052723
 20
319.072613499
 10
-368.6930422318
 20
315.7462275714
 10
-368.1620552985
 20
312.429270646
 10
-367.2787496124
 20
309.1311449978
 10
-366.0456289995
 20
305.8611995222
 10
-364.4661888741
 20
302.6287032348
 10
-362.5449063308
 20
299.4428189976
 10
-360.2872274538
 20
296.3125775457
 10
-357.6995518791
 20
293.2468518885
 10
-354.7892146543
 20
290.2543321584
 10
-351.5644654465
 20
287.3435009778
 10
-348.0344451576
 20
284.5226094139
 10
-344.2091600136
 20
281.7996535904
 10
-340.099453201
 20
279.1823520212
 10
-335.7169741301
 20
276.6781237322
 10
-331.0741454141
 20
274.2940672304
 10
-326.1841276554
 20
272.036940383
 10
-321.0607821405
 20
269.9131412613
 10
-315.7186315491
 20
267.9286900047
 10
-310.1728187872
 20
266.0892117559
 10
-304.4390640638
 20
264.3999207158
 10
-298.5336203296
 20
262.8656053633
 10
-292.4732272064
 20
261.4906148821
 10
-286.275063537
 20
260.2788468321
 10
-279.9566986897
 20
259.2337361014
 10
-273.5360427561
 20
258.35824517
 10
-267.0312957831
 20
257.654855712
 10
-260.4608961827
 20
257.1255615613
 10
-253.8434684664
 20
256.7718630596
 10
-247.197770452
 20
256.5947628038
 10
-240.5426400925
 20
256.5947628038
 10
-233.8969420781
 20
256.7718630596
 10
-227.2795143618
 20
257.1255615613
 10
-220.7091147614
 20
257.654855712
 10
-214.2043677884
 20
258.35824517
 10
-207.7837118548
 20
259.2337361014
 10
-201.4653470075
 20
260.2788468321
 10
-195.2671833381
 20
261.4906148821
 10
-189.2067902149
 20
262.8656053633
 10
-183.3013464807
 20
264.3999207158
 10
-177.5675917573
 20
266.0892117559
 10
-172.0217789955
 20
267.9286900047
 10
-166.679628404
 20
269.9131412613
 10
-161.5562828891
 20
272.036940383
 10
-156.6662651304
 20
274.2940672304
 10
-152.0234364144
 20
276.6781237322
 10
-147.6409573435
 20
279.1823520212
 10
-143.5312505309
 20
281.7996535904
 10
-139.7059653869
 20
284.5226094139
 10
-136.175945098
 20
287.3435009778
 10
-132.9511958902
 20
290.2543321584
 10
-130.0408586654
 20
293.2468518885
 10
-127.4531830907
 20
296.3125775457
 10
-125.1955042137
 20
299.4428189976
 10
-123.2742216704
 20
302.6287032348
 10
-121.694781545
 20
305.8611995222
 10
-120.4616609321
 20
309.1311449978
 10
-119.578355246
 20
312.429270646
 10
-119.0473683127
 20
315.7462275714
 10
-118.8702052723
 20
319.072613499
 10
-119.0473683127
 20
322.3989994266
 10
-119.578355246
 20
325.715956352
 10
-120.4616609321
 20
329.0140820002
 10
-121.694781545
 20
332.2840274759
 10
-123.2742216704
 20
335.5165237632
 10
-125.1955042137
 20
338.7024080004
 10
-127.4531830907
 20
341.8326494523
 10
-130.0408586654
 20
344.8983751095
 10
-132.9511958902
 20
347.8908948396
 10
-136.175945098
 20
350.8017260202
 10
-139.7059653869
 20
353.6226175841
 10
-143.5312505309
 20
356.3455734077
 10
-147.6409573435
 20
358.9628749768
 10
-152.0234364144
 20
361.4671032659
 10
-156.6662651304
 20
363.8511597677
 10
-161.5562828891
 20
366.108286615
 10
-166.679628404
 20
368.2320857367
 10
-172.0217789955
 20
370.2165369933
 10
-177.5675917573
 20
372.0560152421
 10
-183.3013464807
 20
373.7453062823
 10
-189.2067902149
 20
375.2796216347
 10
-195.2671833381
 20
376.6546121159
 10
-201.4653470075
 20
377.8663801659
 10
-207.7837118548
 20
378.9114908966
 10
-214.2043677884
 20
379.7869818281
 10
-220.7091147614
 20
380.490371286
 10
-227.2795143618
 20
381.0196654368
 10
-233.8969420781
 20
381.3733639384
 10
-240.5426400925
 20
381.5504641942
 10
-247.197770452
 20
381.5504641942
 10
-253.8434684664
 20
381.3733639384
 10
-260.4608961827
 20
381.0196654368
 10
-267.0312957831
 20
380.490371286
 10
-273.5360427561
 20
379.7869818281
 10
-279.9566986897
 20
378.9114908966
 10
-286.275063537
 20
377.8663801659
 10
-292.4732272064
 20
376.6546121159
 10
-298.5336203296
 20
375.2796216347
 10
-304.4390640638
 20
373.7453062823
 10
-310.1728187872
 20
372.0560152421
 10
-315.7186315491
 20
370.2165369933
 10
-321.0607821405
 20
368.2320857367
 10
-326.1841276554
 20
366.108286615
 10
-331.0741454141
 20
363.8511597677
 10
-335.7169741301
 20
361.4671032659
 10
-340.099453201
 20
358.9628749768
 10
-344.2091600136
 20
356.3455734077
 10
-348.0344451576
 20
353.6226175841
 10
-351.5644654465
 20
350.8017260202
 10
-354.7892146543
 20
347.8908948396
 10
-357.6995518791
 20
344.8983751095
 10
-360.2872274538
 20
341.8326494523
 10
-362.5449063308
 20
338.7024080004
 10
-364.4661888741
 20
335.5165237632
 10
-366.0456289995
 20
332.2840274759
 10
-367.2787496124
 20
329.0140820002
 10
-368.1620552985
 20
325.715956352
 10
-368.6930422318
 20
322.3989994266
 10
-368.8702052723
 20
319.072613499
  0
ELLIPSE
  5
91
330
1F
100
AcDbEntity
  8
0
  6
Continuous
 62
     7
370
    25
100
AcDbEllipse
 10
-243.8702052723
 20
131.1114593682
 30
0.0
 11
125.0
 21
0.0
 31
0.0
210
0.0
220
0.0
230
1.0
 40
0.2679491924
 41
3.141592653589849
 42
6.283185307179586
  0
LWPOLYLINE
  5
92
330
1F
100
AcDbEntity
  8
0
  6
Continuous
 62
     7
370
    25
100
AcDbPolyline
 90
      108
 70
   128
 43
0.0
 10
-346.1702052723
 20
319.072613499
 10
-345.9938806259
 20
322.0744850925
 10
-345.4655145146
 20
325.0660086126
 10
-344.5869283257
 20
328.0368716583
 10
-343.3611507277
 20
330.976833049
 10
-341.7924072301
 20
333.8757581288
 10
-339.8861056167
 20
336.7236537024
 10
-337.6488173039
 20
339.5107024839
 10
-335.0882546882
 20
342.2272969386
 10
-332.2132445592
 20
344.8640724028
 10
-329.0336976726
 20
347.4119393651
 10
-325.5605745851
 20
349.8621148003
 10
-321.8058478714
 20
352.2061524462
 10
-317.7824608524
 20
354.4359719193
 10
-313.5042829767
 20
356.54388657
 10
-308.9860620097
 20
358.5226299798
 10
-304.2433731949
 20
360.3653810103
 10
-299.2925655634
 20
362.065787317
 10
-294.1507055745
 20
363.6179872469
 10
-288.8355182849
 20
365.0166300454
 10
-283.3653262463
 20
366.2568943011
 10
-277.7589863438
 20
367.3345045661
 10
-272.0358247925
 20
368.2457460946
 10
-266.2155705159
 20
368.9874776482
 10
-260.3182871362
 20
369.5571423247
 10
-254.3643038109
 20
369.9527763718
 10
-248.374145154
 20
370.1730159572
 10
-242.3684604832
 20
370.2171018692
 10
-236.3679526379
 20
370.0848821346
 10
-230.3933066115
 20
369.7768125423
 10
-224.4651182468
 20
369.2939550719
 10
-218.603823237
 20
368.6379742332
 10
-212.8296266803
 20
367.811131328
 10
-207.1624334284
 20
366.8162766551
 10
-201.6217794705
 20
365.6568396847
 10
-196.2267645885
 20
364.3368172361
 10
-190.9959865165
 20
362.8607597003
 10
-185.9474768301
 20
361.2337553533
 10
-181.0986387879
 20
359.4614128161
 10
-176.4661873393
 20
357.5498417207
 10
-172.066091504
 20
355.5056316486
 10
-167.9135193239
 20
353.3358294155
 10
-164.0227855756
 20
351.047914779
 10
-160.4073024243
 20
348.649774655
 10
-157.0795331894
 20
346.1496759292
 10
-154.0509493808
 20
343.55623696
 10
-151.3319911544
 20
340.8783978685
 10
-148.9320313224
 20
338.1253897211
 10
-146.8593430436
 20
335.306702707
 10
-145.1210713038
 20
332.4320534243
 10
-143.7232082857
 20
329.5113513847
 10
-142.6705727129
 20
326.554664853
 10
-141.9667932382
 20
323.5721861403
 10
-141.6142959352
 20
320.5741964686
 10
-141.6142959352
 20
317.5710305294
 10
-141.9667932382
 20
314.5730408577
 10
-142.6705727129
 20
311.590562145
 10
-143.7232082857
 20
308.6338756134
 10
-145.1210713038
 20
305.7131735737
 10
-146.8593430436
 20
302.838524291
 10
-148.9320313224
 20
300.0198372769
 10
-151.3319911544
 20
297.2668291295
 10
-154.0509493808
 20
294.5889900381
 10
-157.0795331894
 20
291.9955510688
 10
-160.4073024243
 20
289.495452343
 10
-164.0227855756
 20
287.097312219
 10
-167.9135193239
 20
284.8093975826
 10
-172.066091504
 20
282.6395953494
 10
-176.4661873393
 20
280.5953852773
 10
-181.0986387879
 20
278.6838141819
 10
-185.9474768301
 20
276.9114716448
 10
-190.9959865165
 20
275.2844672977
 10
-196.2267645885
 20
273.8084097619
 10
-201.6217794705
 20
272.4883873133
 10
-207.1624334284
 20
271.3289503429
 10
-212.8296266803
 20
270.33409567
 10
-218.603823237
 20
269.5072527648
 10
-224.4651182468
 20
268.8512719261
 10
-230.3933066115
 20
268.3684144557
 10
-236.3679526379
 20
268.0603448634
 10
-242.3684604832
 20
267.9281251288
 10
-248.374145154
 20
267.9722110409
 10
-254.3643038109
 20
268.1924506262
 10
-260.3182871362
 20
268.5880846733
 10
-266.2155705159
 20
269.1577493498
 10
-272.0358247925
 20
269.8994809035
 10
-277.7589863438
 20
270.8107224319
 10
-283.3653262463
 20
271.8883326969
 10
-288.8355182849
 20
273.1285969526
 10
-294.1507055745
 20
274.5272397511
 10
-299.2925655634
 20
276.0794396811
 10
-304.2433731949
 20
277.7798459877
 10
-308.9860620097
 20
279.6225970182
 10
-313.5042829767
 20
281.601340428
 10
-317.7824608524
 20
283.7092550787
 10
-321.8058478714
 20
285.9390745518
 10
-325.5605745851
 20
288.2831121977
 10
-329.0336976726
 20
290.7332876329
 10
-332.2132445592
 20
293.2811545952
 10
-335.0882546882
 20
295.9179300594
 10
-337.6488173039
 20
298.6345245141
 10
-339.8861056167
 20
301.4215732956
 10
-341.7924072301
 20
304.2694688692
 10
-343.3611507277
 20
307.168393949
 10
-344.5869283257
 20
310.1083553397
 10
-345.4655145146
 20
313.0792183854
 10
-345.9938806259
 20
316.0707419056
 10
-346.1702052723
 20
319.072613499
  0
LINE
  5
93
330
1F
100
AcDbEntity
  8
0
  6
Continuous
 62
     7
370
    25
100
AcDbLine
 10
-368.8702052723
 20
-85.927386501
 30
0.0
 11
-118.8702052723
 21
-85.927386501
 31
0.0
  0
LINE
  5
94
330
1F
100
AcDbEntity
  8
0
  6
Continuous
 62
     7
370
    25
100
AcDbLine
 10
530.9830795245
 20
131.1114593682
 30
0.0
 11
530.9830795245
 21
-85.927386501
 31
0.0
  0
LINE
  5
95
330
1F
100
AcDbEntity
  8
0
  6
Continuous
 62
     7
370
    25
100
AcDbLine
 10
780.9830795245
 20
-85.927386501
 30
0.0
 11
780.9830795245
 21
131.1114593682
 31
0.0
  0
LINE
  5
96
330
1F
100
AcDbEntity
  8
0
  6
Continuous
 62
     7
370
    25
100
AcDbLine
 10
530.9830795245
 20
319.072613499
 30
0.0
 11
530.9830795245
 21
131.1114593682
 31
0.0
  0
LINE
  5
97
330
1F
100
AcDbEntity
  8
0
  6
Continuous
 62
     7
370
    25
100
AcDbLine
 10
780.9830795245
 20
131.1114593682
 30
0.0
 11
780.9830795245
 21
319.072613499
 31
0.0
  0
ELLIPSE
  5
98
330
1F
100
AcDbEntity
  8
0
  6
Continuous
 62
     7
370
    25
100
AcDbEllipse
 10
655.9830795245
 20
131.1114593682
 30
0.0
 11
125.0
 21
0.0
 31
0.0
210
0.0
220
0.0
230
1.0
 40
0.2679491924
 41
1.570796326794897
 42
3.141592653589847
  0
ELLIPSE
  5
99
330
1F
100
AcDbEntity
  8
0
  6
Continuous
 62
     7
370
    25
100
AcDbEllipse
 10
655.9830795245
 20
131.1114593682
 30
0.0
 11
125.0
 21
0.0
 31
0.0
210
0.0
220
0.0
230
1.0
 40
0.2679491924
 41
0.0
 42
1.570796326794924
  0
LINE
  5
9A
330
1F
100
AcDbEntity
  8
0
  6
Continuous
 62
     7
370
    25
100
AcDbLine
 10
530.9830795245
 20
-85.927386501
 30
0.0
 11
780.9830795245
 21
-85.927386501
 31
0.0
  0
LWPOLYLINE
  5
9B
330
1F
100
AcDbEntity
  8
0
  6
Continuous
 62
     7
370
    25
100
AcDbPolyline
 90
       60
 70
   128
 43
0.0
 10
530.9830795245
 20
319.072613499
 10
531.1602425649
 20
322.3989994266
 10
531.6912294983
 20
325.715956352
 10
532.5745351844
 20
329.0140820002
 10
533.8076557973
 20
332.2840274759
 10
535.3870959227
 20
335.5165237632
 10
537.308378466
 20
338.7024080004
 10
539.566057343
 20
341.8326494523
 10
542.1537329177
 20
344.8983751095
 10
545.0640701425
 20
347.8908948396
 10
548.2888193503
 20
350.8017260202
 10
551.8188396392
 20
353.6226175841
 10
555.6441247832
 20
356.3455734077
 10
559.7538315958
 20
358.9628749768
 10
564.1363106666
 20
361.4671032659
 10
568.7791393827
 20
363.8511597677
 10
573.6691571414
 20
366.108286615
 10
578.7925026563
 20
368.2320857367
 10
584.1346532477
 20
370.2165369933
 10
589.6804660096
 20
372.0560152421
 10
595.4142207329
 20
373.7453062823
 10
601.3196644672
 20
375.2796216347
 10
607.3800575904
 20
376.6546121159
 10
613.5782212598
 20
377.8663801659
 10
619.8965861071
 20
378.9114908966
 10
626.3172420406
 20
379.7869818281
 10
632.8219890136
 20
380.490371286
 10
639.3923886141
 20
381.0196654368
 10
646.0098163304
 20
381.3733639384
 10
652.6555143448
 20
381.5504641942
 10
659.3106447042
 20
381.5504641942
 10
665.9563427187
 20
381.3733639384
 10
672.573770435
 20
381.0196654368
 10
679.1441700354
 20
380.490371286
 10
685.6489170084
 20
379.7869818281
 10
692.069572942
 20
378.9114908966
 10
698.3879377893
 20
377.8663801659
 10
704.5861014587
 20
376.6546121159
 10
710.6464945819
 20
375.2796216347
 10
716.5519383161
 20
373.7453062823
 10
722.2856930395
 20
372.0560152421
 10
727.8315058013
 20
370.2165369933
 10
733.1736563928
 20
368.2320857367
 10
738.2970019077
 20
366.108286615
 10
743.1870196664
 20
363.8511597677
 10
747.8298483824
 20
361.4671032659
 10
752.2123274533
 20
358.9628749768
 10
756.3220342659
 20
356.3455734077
 10
760.1473194098
 20
353.6226175841
 10
763.6773396988
 20
350.8017260202
 10
766.9020889066
 20
347.8908948396
 10
769.8124261314
 20
344.8983751095
 10
772.4001017061
 20
341.8326494523
 10
774.6577805831
 20
338.7024080004
 10
776.5790631263
 20
335.5165237632
 10
778.1585032518
 20
332.2840274759
 10
779.3916238647
 20
329.0140820002
 10
780.2749295508
 20
325.715956352
 10
780.8059164841
 20
322.3989994266
 10
780.9830795245
 20
319.072613499
  0
LINE
  5
9C
330
1F
100
AcDbEntity
  8
0
  6
Continuous
 62
     7
370
    25
100
AcDbLine
 10
227.3483332879
 20
732.5649613739
 30
0.0
 11
118.8289103533
 21
732.5649613739
 31
0.0
  0
LINE
  5
9D
330
1F
100
AcDbEntity
  8
0
  6
Continuous
 62
     7
370
    25
100
AcDbLine
 10
118.8289103533
 20
482.5649613739
 30
0.0
 11
227.3483332879
 21
482.5649613739
 31
0.0
  0
CIRCLE
  5
9E
330
1F
100
AcDbEntity
  8
0
  6
Continuous
 62
     7
370
    25
100
AcDbCircle
 10
118.8289103533
 20
607.5649613739
 30
0.0
 40
125.0
  0
CIRCLE
  5
9F
330
1F
100
AcDbEntity
  8
0
  6
Continuous
 62
     7
370
    25
100
AcDbCircle
 10
118.8289103533
 20
607.5649613739
 30
0.0
 40
102.3000000000001
  0
LWPOLYLINE
  5
A0
330
1F
100
AcDbEntity
  8
0
  6
Continuous
 62
     7
370
    25
100
AcDbPolyline
 90
       61
 70
   128
 43
0.0
 10
227.3483332879
 20
732.5649613739
 10
233.1098027201
 20
732.3877983335
 10
238.8549406413
 20
731.8568114002
 10
244.5674618338
 20
730.9735057141
 10
250.2311735356
 20
729.7403851012
 10
255.8300213406
 20
728.1609449758
 10
261.3481347064
 20
726.2396624325
 10
266.7698719411
 20
723.9819835555
 10
272.0798645415
 20
721.3943079808
 10
277.2630607566
 20
718.483970756
 10
282.3047682536
 20
715.2592215482
 10
287.190695765
 20
711.7292012593
 10
291.9069935982
 20
707.9039161153
 10
296.4402928947
 20
703.7942093027
 10
300.777743525
 20
699.4117302318
 10
304.9070505143
 20
694.7689015158
 10
308.816508893
 20
689.8788837571
 10
312.4950368768
 20
684.7555382422
 10
315.9322072784
 20
679.4133876507
 10
319.1182770648
 20
673.8675748889
 10
322.0442149751
 20
668.1338201655
 10
324.7017271204
 20
662.2283764313
 10
327.0832804937
 20
656.1679833081
 10
329.1821243234
 20
649.9698196387
 10
330.9923092085
 20
643.6514547914
 10
332.5087039833
 20
637.2307988578
 10
333.727010262
 20
630.7260518848
 10
334.6437746232
 20
624.1556522844
 10
335.2563983986
 20
617.5382245681
 10
335.5631450397
 20
610.8925265537
 10
335.5631450397
 20
604.2373961942
 10
335.2563983986
 20
597.5916981798
 10
334.6437746232
 20
590.9742704635
 10
333.727010262
 20
584.403870863
 10
332.5087039833
 20
577.89912389
 10
330.9923092085
 20
571.4784679565
 10
329.1821243234
 20
565.1601031092
 10
327.0832804937
 20
558.9619394398
 10
324.7017271204
 20
552.9015463166
 10
322.0442149751
 20
546.9961025824
 10
319.1182770648
 20
541.262347859
 10
315.9322072784
 20
535.7165350971
 10
312.4950368768
 20
530.3743845057
 10
308.816508893
 20
525.2510389908
 10
304.9070505143
 20
520.3610212321
 10
300.777743525
 20
515.7181925161
 10
296.4402928947
 20
511.3357134452
 10
291.9069935982
 20
507.2260066326
 10
287.190695765
 20
503.4007214886
 10
282.3047682536
 20
499.8707011997
 10
277.2630607566
 20
496.6459519919
 10
272.0798645415
 20
493.7356147671
 10
266.7698719411
 20
491.1479391924
 10
261.3481347064
 20
488.8902603154
 10
255.8300213406
 20
486.9689777721
 10
250.2311735356
 20
485.3895376467
 10
244.5674618338
 20
484.1564170338
 10
238.8549406413
 20
483.2731113477
 10
233.1098027201
 20
482.7421244143
 10
227.3483332879
 20
482.5649613739
 10
227.3483332879
 20
482.5649613739
  0
LWPOLYLINE
  5
A1
330
1F
100
AcDbEntity
  8
0
  6
Continuous
 62
     7
370
    25
100
AcDbPolyline
 90
       35
 70
   128
 43
0.0
 10
176.9842938301
 20
691.7269561974
 10
174.0193526943
 20
689.2553306867
 10
169.9593603968
 20
685.5006039731
 10
166.0971997777
 20
681.4772169541
 10
162.4461845046
 20
677.1990390784
 10
159.0189003837
 20
672.6808181113
 10
155.8271619731
 20
667.9381292966
 10
152.8819718566
 20
662.9873216651
 10
150.1934827144
 20
657.8454616762
 10
147.7709623257
 20
652.5302743866
 10
145.6227616201
 20
647.060082348
 10
143.7562858904
 20
641.4537424455
 10
142.1779692651
 20
635.7305808942
 10
140.8932525286
 20
629.9103266176
 10
139.9065643657
 20
624.0130432379
 10
139.2213060948
 20
618.0590599126
 10
138.8398399432
 20
612.0689012557
 10
138.7634809036
 20
606.0632165849
 10
138.9924922017
 20
600.0627087396
 10
139.5260843878
 20
594.0880627132
 10
140.3624180593
 20
588.1598743485
 10
141.4986102008
 20
582.2985793386
 10
142.9307441225
 20
576.5243827819
 10
144.6538829621
 20
570.85718953
 10
146.662086703
 20
565.3165355721
 10
148.9484326511
 20
559.9215206902
 10
151.5050392981
 20
554.6907426182
 10
154.3230934912
 20
549.6422329318
 10
157.392880814
 20
544.7933948896
 10
160.7038190735
 20
540.160943441
 10
164.2444947797
 20
535.7608476057
 10
168.0027024899
 20
531.6082754256
 10
171.9654868836
 20
527.7175416773
 10
176.1191874221
 20
524.102058526
 10
176.9842938301
 20
523.4029665505
  0
INSERT
  5
AD
330
1F
100
AcDbEntity
  8
FORMAT
 62
     7
100
AcDbBlockReference
  2
SW_CENTERMARKSYMBOL_0
 10
118.8289103533
 20
607.5649613739
 30
0.0
  0
LINE
  5
AE
330
1F
100
AcDbEntity
  8
0
  6
Continuous
 62
     7
370
    25
100
AcDbLine
 10
227.3483332879
 20
-310.9520041872
 30
0.0
 11
118.8289103533
 21
-310.9520041872
 31
0.0
  0
LINE
  5
AF
330
1F
100
AcDbEntity
  8
0
  6
Continuous
 62
     7
370
    25
100
AcDbLine
 10
118.8289103533
 20
-560.9520041872
 30
0.0
 11
227.3483332879
 21
-560.9520041872
 31
0.0
  0
LWPOLYLINE
  5
B0
330
1F
100
AcDbEntity
  8
0
  6
Continuous
 62
     7
370
    25
100
AcDbPolyline
 90
      119
 70
   128
 43
0.0
 10
227.3483332879
 20
-560.9520041872
 10
233.1098027201
 20
-560.7748411468
 10
238.8549406413
 20
-560.2438542135
 10
244.5674618338
 20
-559.3605485274
 10
250.2311735356
 20
-558.1274279144
 10
255.8300213406
 20
-556.547987789
 10
261.3481347064
 20
-554.6267052458
 10
266.7698719411
 20
-552.3690263688
 10
272.0798645415
 20
-549.7813507941
 10
277.2630607566
 20
-546.8710135693
 10
282.3047682536
 20
-543.6462643614
 10
287.190695765
 20
-540.1162440725
 10
291.9069935982
 20
-536.2909589286
 10
296.4402928947
 20
-532.1812521159
 10
300.777743525
 20
-527.7987730451
 10
304.9070505143
 20
-523.1559443291
 10
308.816508893
 20
-518.2659265703
 10
312.4950368768
 20
-513.1425810555
 10
315.9322072784
 20
-507.800430464
 10
319.1182770648
 20
-502.2546177022
 10
322.0442149751
 20
-496.5208629788
 10
324.7017271204
 20
-490.6154192446
 10
327.0832804937
 20
-484.5550261214
 10
329.1821243234
 20
-478.356862452
 10
330.9923092085
 20
-472.0384976047
 10
332.5087039833
 20
-465.6178416711
 10
333.727010262
 20
-459.1130946981
 10
334.6437746232
 20
-452.5426950977
 10
335.2563983986
 20
-445.9252673813
 10
335.5631450397
 20
-439.2795693669
 10
335.5631450397
 20
-432.6244390075
 10
335.2563983986
 20
-425.9787409931
 10
334.6437746232
 20
-419.3613132767
 10
333.727010262
 20
-412.7909136763
 10
332.5087039833
 20
-406.2861667033
 10
330.9923092085
 20
-399.8655107698
 10
329.1821243234
 20
-393.5471459225
 10
327.0832804937
 20
-387.348982253
 10
324.7017271204
 20
-381.2885891299
 10
322.0442149751
 20
-375.3831453956
 10
319.1182770648
 20
-369.6493906722
 10
315.9322072784
 20
-364.1035779104
 10
312.4950368768
 20
-358.7614273189
 10
308.816508893
 20
-353.6380818041
 10
304.9070505143
 20
-348.7480640453
 10
300.777743525
 20
-344.1052353293
 10
296.4402928947
 20
-339.7227562585
 10
291.9069935982
 20
-335.6130494458
 10
287.190695765
 20
-331.7877643019
 10
282.3047682536
 20
-328.257744013
 10
277.2630607566
 20
-325.0329948051
 10
272.0798645415
 20
-322.1226575803
 10
266.7698719411
 20
-319.5349820057
 10
261.3481347064
 20
-317.2773031287
 10
255.8300213406
 20
-315.3560205854
 10
250.2311735356
 20
-313.77658046
 10
244.5674618338
 20
-312.543459847
 10
238.8549406413
 20
-311.6601541609
 10
233.1098027201
 20
-311.1291672276
 10
227.3483332879
 20
-310.9520041872
 10
221.5868638556
 20
-311.1291672276
 10
215.8417259345
 20
-311.6601541609
 10
210.129204742
 20
-312.543459847
 10
204.4654930402
 20
-313.77658046
 10
198.8666452352
 20
-315.3560205854
 10
193.3485318694
 20
-317.2773031287
 10
187.9267946347
 20
-319.5349820057
 10
182.6168020343
 20
-322.1226575803
 10
177.4336058192
 20
-325.0329948051
 10
172.3918983221
 20
-328.257744013
 10
167.5059708108
 20
-331.7877643019
 10
162.7896729776
 20
-335.6130494458
 10
158.2563736811
 20
-339.7227562585
 10
153.9189230508
 20
-344.1052353293
 10
149.7896160615
 20
-348.7480640453
 10
145.8801576828
 20
-353.6380818041
 10
142.201629699
 20
-358.7614273189
 10
138.7644592974
 20
-364.1035779104
 10
135.578389511
 20
-369.6493906722
 10
132.6524516007
 20
-375.3831453956
 10
129.9949394554
 20
-381.2885891299
 10
127.6133860821
 20
-387.348982253
 10
125.5145422524
 20
-393.5471459225
 10
123.7043573673
 20
-399.8655107698
 10
122.1879625925
 20
-406.2861667033
 10
120.9696563138
 20
-412.7909136763
 10
120.0528919526
 20
-419.3613132767
 10
119.4402681771
 20
-425.9787409931
 10
119.1335215361
 20
-432.6244390075
 10
119.1335215361
 20
-439.2795693669
 10
119.4402681771
 20
-445.9252673813
 10
120.0528919526
 20
-452.5426950977
 10
120.9696563138
 20
-459.1130946981
 10
122.1879625925
 20
-465.6178416711
 10
123.7043573673
 20
-472.0384976047
 10
125.5145422524
 20
-478.356862452
 10
127.6133860821
 20
-484.5550261214
 10
129.9949394554
 20
-490.6154192446
 10
132.6524516007
 20
-496.5208629788
 10
135.578389511
 20
-502.2546177022
 10
138.7644592974
 20
-507.800430464
 10
142.201629699
 20
-513.1425810555
 10
145.8801576828
 20
-518.2659265703
 10
149.7896160615
 20
-523.1559443291
 10
153.9189230508
 20
-527.7987730451
 10
158.2563736811
 20
-532.1812521159
 10
162.7896729776
 20
-536.2909589286
 10
167.5059708108
 20
-540.1162440725
 10
172.3918983221
 20
-543.6462643614
 10
177.4336058192
 20
-546.8710135693
 10
182.6168020343
 20
-549.7813507941
 10
187.9267946347
 20
-552.3690263688
 10
193.3485318694
 20
-554.6267052458
 10
198.8666452352
 20
-556.547987789
 10
204.4654930402
 20
-558.1274279144
 10
210.129204742
 20
-559.3605485274
 10
215.8417259345
 20
-560.2438542135
 10
221.5868638557
 20
-560.7748411468
 10
227.3483332879
 20
-560.9520041872
  0
ARC
  5
B1
330
1F
100
AcDbEntity
  8
0
  6
Continuous
 62
     7
370
    25
100
AcDbCircle
 10
118.8289103533
 20
-435.9520041872
 30
0.0
 40
125.0
100
AcDbArc
 50
90.0
 51
180.0
  0
ARC
  5
B2
330
1F
100
AcDbEntity
  8
0
  6
Continuous
 62
     7
370
    25
100
AcDbCircle
 10
118.8289103533
 20
-435.9520041872
 30
0.0
 40
125.0
100
AcDbArc
 50
180.0
 51
270.0
  0
LWPOLYLINE
  5
B3
330
1F
100
AcDbEntity
  8
0
  6
Continuous
 62
     7
370
    25
100
AcDbPolyline
 90
      108
 70
   128
 43
0.0
 10
227.3483332879
 20
-538.2520041872
 10
222.1489391703
 20
-538.0756795409
 10
216.9674684412
 20
-537.5473134296
 10
211.8217827039
 20
-536.6687272406
 10
206.7296202029
 20
-535.4429496427
 10
201.7085346773
 20
-533.8742061451
 10
196.7758348491
 20
-531.9679045316
 10
191.9485247565
 20
-529.7306162189
 10
187.2432451373
 20
-527.1700536031
 10
182.6762160652
 20
-524.2950434742
 10
178.2631810356
 20
-521.1154965875
 10
174.0193526943
 20
-517.6423735
 10
169.9593603968
 20
-513.8876467864
 10
166.0971997777
 20
-509.8642597674
 10
162.4461845046
 20
-505.5860818917
 10
159.0189003837
 20
-501.0678609246
 10
155.8271619731
 20
-496.3251721099
 10
152.8819718566
 20
-491.3743644783
 10
150.1934827144
 20
-486.2325044895
 10
147.7709623257
 20
-480.9173171999
 10
145.6227616201
 20
-475.4471251613
 10
143.7562858904
 20
-469.8407852588
 10
142.1779692651
 20
-464.1176237075
 10
140.8932525286
 20
-458.2973694309
 10
139.9065643657
 20
-452.4000860512
 10
139.2213060948
 20
-446.4461027259
 10
138.8398399432
 20
-440.4559440689
 10
138.7634809036
 20
-434.4502593982
 10
138.9924922017
 20
-428.4497515528
 10
139.5260843878
 20
-422.4751055265
 10
140.3624180593
 20
-416.5469171617
 10
141.4986102008
 20
-410.6856221519
 10
142.9307441225
 20
-404.9114255952
 10
144.6538829621
 20
-399.2442323433
 10
146.662086703
 20
-393.7035783854
 10
148.9484326511
 20
-388.3085635035
 10
151.5050392981
 20
-383.0777854315
 10
154.3230934912
 20
-378.029275745
 10
157.392880814
 20
-373.1804377029
 10
160.7038190735
 20
-368.5479862543
 10
164.2444947797
 20
-364.147890419
 10
168.0027024899
 20
-359.9953182389
 10
171.9654868836
 20
-356.1045844906
 10
176.1191874221
 20
-352.4891013392
 10
180.449485439
 20
-349.1613321043
 10
184.9414535002
 20
-346.1327482958
 10
189.579606861
 20
-343.4137900694
 10
194.347956846
 20
-341.0138302374
 10
199.2300659651
 20
-338.9411419585
 10
204.2091045766
 20
-337.2028702187
 10
209.2679089031
 20
-335.8050072007
 10
214.3890401979
 20
-334.7523716279
 10
219.5548448608
 20
-334.0485921532
 10
224.7475152927
 20
-333.6960948502
 10
229.9491512831
 20
-333.6960948502
 10
235.141821715
 20
-334.0485921532
 10
240.3076263779
 20
-334.7523716279
 10
245.4287576727
 20
-335.8050072007
 10
250.4875619992
 20
-337.2028702187
 10
255.4666006107
 20
-338.9411419585
 10
260.3487097298
 20
-341.0138302374
 10
265.1170597148
 20
-343.4137900694
 10
269.7552130756
 20
-346.1327482958
 10
274.2471811368
 20
-349.1613321043
 10
278.5774791537
 20
-352.4891013392
 10
282.7311796922
 20
-356.1045844906
 10
286.6939640859
 20
-359.9953182389
 10
290.4521717961
 20
-364.147890419
 10
293.9928475023
 20
-368.5479862543
 10
297.3037857618
 20
-373.1804377029
 10
300.3735730846
 20
-378.029275745
 10
303.1916272777
 20
-383.0777854315
 10
305.7482339247
 20
-388.3085635035
 10
308.0345798728
 20
-393.7035783854
 10
310.0427836137
 20
-399.2442323433
 10
311.7659224533
 20
-404.9114255952
 10
313.198056375
 20
-410.6856221519
 10
314.3342485165
 20
-416.5469171617
 10
315.170582188
 20
-422.4751055265
 10
315.7041743741
 20
-428.4497515528
 10
315.9331856722
 20
-434.4502593982
 10
315.8568266326
 20
-440.4559440689
 10
315.475360481
 20
-446.4461027259
 10
314.7901022101
 20
-452.4000860512
 10
313.8034140472
 20
-458.2973694309
 10
312.5186973107
 20
-464.1176237075
 10
310.9403806854
 20
-469.8407852588
 10
309.0739049557
 20
-475.4471251613
 10
306.9257042501
 20
-480.9173171999
 10
304.5031838614
 20
-486.2325044895
 10
301.8146947192
 20
-491.3743644783
 10
298.8695046027
 20
-496.3251721099
 10
295.6777661921
 20
-501.0678609246
 10
292.2504820712
 20
-505.5860818917
 10
288.5994667981
 20
-509.8642597674
 10
284.737306179
 20
-513.8876467864
 10
280.6773138815
 20
-517.6423735
 10
276.4334855402
 20
-521.1154965875
 10
272.0204505106
 20
-524.2950434742
 10
267.4534214385
 20
-527.1700536031
 10
262.7481418193
 20
-529.7306162189
 10
257.9208317267
 20
-531.9679045316
 10
252.9881318985
 20
-533.8742061451
 10
247.9670463729
 20
-535.4429496427
 10
242.8748838719
 20
-536.6687272406
 10
237.7291981345
 20
-537.5473134296
 10
232.5477274055
 20
-538.0756795409
 10
227.3483332879
 20
-538.2520041872
  0
ARC
  5
B4
330
1F
100
AcDbEntity
  8
0
  6
Continuous
 62
     7
370
    25
100
AcDbCircle
 10
118.8289103533
 20
-435.9520041872
 30
0.0
 40
102.3000000000001
100
AcDbArc
 50
304.6442173553
 51
55.3557826447
  0
LINE
  5
B5
330
1F
100
AcDbEntity
  8
0
  6
Continuous
 62
     7
370
    25
100
AcDbLine
 10
495.9764905905
 20
-417.7535452402
 30
0.0
 11
495.9764905905
 21
-614.3132355021
 31
0.0
  0
LINE
  5
B6
330
1F
100
AcDbEntity
  8
0
  6
Continuous
 62
     7
370
    25
100
AcDbLine
 10
745.9764905905
 20
-614.3132355021
 30
0.0
 11
745.9764905905
 21
-456.4307749304
 31
0.0
  0
LINE
  5
B7
330
1F
100
AcDbEntity
  8
0
  6
Continuous
 62
     7
370
    25
100
AcDbLine
 10
581.1753169493
 20
-194.1015141221
 30
0.0
 11
497.4453915137
 21
-409.9066936555
 31
0.0
  0
LINE
  5
B8
330
1F
100
AcDbEntity
  8
0
  6
Continuous
 62
     7
370
    25
100
AcDbLine
 10
745.9764905905
 20
-460.4916870699
 30
0.0
 11
814.2473039268
 21
-284.5307620805
 31
0.0
  0
LWPOLYLINE
  5
B9
330
1F
100
AcDbEntity
  8
0
  6
Continuous
 62
     7
370
    25
100
AcDbPolyline
 90
      119
 70
   128
 43
0.0
 10
532.5881429422
 20
-563.2877285132
 10
537.417636222
 20
-560.6443587304
 10
542.4839861529
 20
-558.1531192099
 10
547.7728316155
 20
-555.8210716405
 10
553.2691808029
 20
-553.6548264646
 10
558.9574537159
 20
-551.6605241394
 10
564.8215263272
 20
-549.8438177316
 10
570.8447762857
 20
-548.2098568928
 10
577.010130035
 20
-546.7632732626
 10
583.3001112101
 20
-545.5081673394
 10
589.696890176
 20
-544.4480968574
 10
596.1823345676
 20
-543.5860667014
 10
602.7380606884
 20
-542.9245203897
 10
609.3454856202
 20
-542.4653331471
 10
615.9858798992
 20
-542.2098065897
 10
622.6404206065
 20
-542.1586650354
 10
629.2902447234
 20
-542.3120534504
 10
635.9165026009
 20
-542.6695370386
 10
642.5004113912
 20
-543.2301024739
 10
649.0233082895
 20
-543.9921607727
 10
655.4667034358
 20
-544.953551798
 10
661.8123323266
 20
-546.1115503824
 10
668.0422075873
 20
-547.4628740532
 10
674.1386699597
 20
-549.0036923366
 10
680.0844383587
 20
-550.7296376157
 10
685.862658858
 20
-552.6358175111
 10
691.4569524636
 20
-554.7168287489
 10
696.8514615426
 20
-556.9667724766
 10
702.0308947729
 20
-559.3792709842
 10
706.9805704882
 20
-561.9474857826
 10
711.6864582951
 20
-564.6641369879
 10
716.1352188431
 20
-567.5215239572
 10
720.3142416373
 20
-570.5115471166
 10
724.2116807834
 20
-573.6257309207
 10
727.8164885668
 20
-576.855247877
 10
731.1184467682
 20
-580.1909435689
 10
734.1081956282
 20
-583.6233626046
 10
736.7772603789
 20
-587.1427754194
 10
739.1180752663
 20
-590.7392058552
 10
741.1240049963
 20
-594.4024594393
 10
742.7893635431
 20
-598.1221522814
 10
744.109430267
 20
-601.887740508
 10
745.0804632954
 20
-605.6885501501
 10
745.6997101297
 20
-609.5138073999
 10
745.9654154475
 20
-613.3526691501
 10
745.8768260782
 20
-617.19425373
 10
745.4341931379
 20
-621.0276717507
 10
744.6387713179
 20
-624.8420569724
 10
743.4928153277
 20
-628.6265971056
 10
741.9995735041
 20
-632.3705644604
 10
740.1632786032
 20
-636.0633463543
 10
737.9891358025
 20
-639.6944751959
 10
735.4833079459
 20
-643.2536581561
 10
732.6528980748
 20
-646.7308063439
 10
729.5059292934
 20
-650.1160634052
 10
726.0513220266
 20
-653.3998334609
 10
722.2988687341
 20
-656.5728083081
 10
718.2592061525
 20
-659.6259938048
 10
713.9437851442
 20
-662.550735365
 10
709.3648382389
 20
-665.338742491
 10
704.5353449591
 20
-667.9821122737
 10
699.4689950282
 20
-670.4733517943
 10
694.1801495655
 20
-672.8053993637
 10
688.6838003782
 20
-674.9716445396
 10
682.9955274651
 20
-676.9659468648
 10
677.1314548539
 20
-678.7826532726
 10
671.1082048954
 20
-680.4166141114
 10
664.9428511461
 20
-681.8631977416
 10
658.652869971
 20
-683.1183036648
 10
652.2560910051
 20
-684.1783741468
 10
645.7706466134
 20
-685.0404043028
 10
639.2149204927
 20
-685.7019506145
 10
632.6074955609
 20
-686.1611378571
 10
625.9671012819
 20
-686.4166644145
 10
619.3125605746
 20
-686.4678059688
 10
612.6627364577
 20
-686.3144175538
 10
606.0364785802
 20
-685.9569339656
 10
599.4525697899
 20
-685.3963685303
 10
592.9296728916
 20
-684.6343102315
 10
586.4862777453
 20
-683.6729192062
 10
580.1406488545
 20
-682.5149206217
 10
573.9107735938
 20
-681.163596951
 10
567.8143112214
 20
-679.6227786676
 10
561.8685428224
 20
-677.8968333885
 10
556.0903223231
 20
-675.990653493
 10
550.4960287175
 20
-673.9096422553
 10
545.1015196385
 20
-671.6596985276
 10
539.9220864082
 20
-669.24720002
 10
534.9724106929
 20
-666.6789852216
 10
530.266522886
 20
-663.9623340162
 10
525.817762338
 20
-661.104947047
 10
521.6387395438
 20
-658.1149238875
 10
517.7413003976
 20
-655.0007400835
 10
514.1364926143
 20
-651.7712231272
 10
510.8345344129
 20
-648.4355274353
 10
507.8447855529
 20
-645.0031083996
 10
505.1757208022
 20
-641.4836955848
 10
502.8349059147
 20
-637.887265149
 10
500.8289761848
 20
-634.2240115649
 10
499.163617638
 20
-630.5043187228
 10
497.8435509141
 20
-626.7387304962
 10
496.8725178857
 20
-622.9379208541
 10
496.2532710514
 20
-619.1126636043
 10
495.9875657336
 20
-615.2738018541
 10
496.0761551029
 20
-611.4322172742
 10
496.5187880431
 20
-607.5987992535
 10
497.3142098631
 20
-603.7844140318
 10
498.4601658533
 20
-599.9998738985
 10
499.953407677
 20
-596.2559065438
 10
501.7897025778
 20
-592.5631246499
 10
503.9638453786
 20
-588.9319958083
 10
506.4696732352
 20
-585.3728128481
 10
509.3000831063
 20
-581.8956646603
 10
512.4470518877
 20
-578.510407599
 10
515.9016591545
 20
-575.2266375433
 10
519.654112447
 20
-572.0536626961
 10
523.6937750286
 20
-569.0004771994
 10
528.0091960369
 20
-566.0757356392
 10
532.5881429422
 20
-563.2877285132
  0
LWPOLYLINE
  5
BA
330
1F
100
AcDbEntity
  8
0
  6
Continuous
 62
     7
370
    25
100
AcDbPolyline
 90
      108
 70
   128
 43
0.0
 10
548.6394668752
 20
-572.5539605824
 10
544.5188597083
 20
-575.0766893377
 10
540.6618178342
 20
-577.7346745959
 10
537.0816372751
 20
-580.5187537313
 10
533.7906596553
 20
-583.4193294462
 10
530.8002296562
 20
-586.4264028554
 10
528.1206559096
 20
-589.5296079537
 10
525.7611754613
 20
-592.7182473504
 10
523.7299219292
 20
-595.981329145
 10
522.033897465
 20
-599.3076048184
 10
520.6789486164
 20
-602.6856080094
 10
519.6697461728
 20
-606.1036940411
 10
519.009769064
 20
-609.5500800629
 10
518.701292368
 20
-613.0128856683
 10
518.7453794676
 20
-616.480173849
 10
519.1418783857
 20
-619.9399921442
 10
519.8894223083
 20
-623.3804138437
 10
520.9854342965
 20
-626.7895791011
 10
522.4261361701
 20
-630.1557358174
 10
524.2065615313
 20
-633.4672801532
 10
526.3205728849
 20
-636.7127965291
 10
528.7608827959
 20
-639.8810969779
 10
531.5190790104
 20
-642.9612597114
 10
534.5856534549
 20
-645.9426667707
 10
537.9500350118
 20
-648.8150406281
 10
541.6006259609
 20
-651.5684796157
 10
545.5248419591
 20
-654.193492059
 10
549.7091554207
 20
-656.6810289963
 10
554.1391421506
 20
-659.0225153725
 10
558.7995310666
 20
-661.2098795989
 10
563.6742568428
 20
-663.235581378
 10
568.7465152895
 20
-665.0926376959
 10
573.9988212812
 20
-666.774646895
 10
579.4130690309
 20
-668.275810741
 10
584.970594505
 20
-669.5909544112
 10
590.652239762
 20
-670.7155443329
 10
596.4384189937
 20
-671.6457038117
 10
602.3091860414
 20
-672.3782263951
 10
608.2443031551
 20
-672.9105869261
 10
614.2233107565
 20
-673.2409502477
 10
620.2255979678
 20
-673.3681775289
 10
626.2304736615
 20
-673.2918301911
 10
632.2172377872
 20
-673.0121714193
 10
638.1652527286
 20
-672.5301652552
 10
644.054014446
 20
-671.847473274
 10
649.863223158
 20
-670.9664488562
 10
655.5728533186
 20
-669.8901290757
 10
661.1632226498
 20
-668.6222242297
 10
666.6150599905
 20
-667.1671050487
 10
671.9095717279
 20
-665.5297876302
 10
677.0285065832
 20
-663.7159161464
 10
681.9542185276
 20
-661.731743388
 10
686.6697276116
 20
-659.5841092097
 10
691.1587784985
 20
-657.2804169513
 10
695.4058964998
 20
-654.8286079174
 10
699.3964409201
 20
-652.2371340015
 10
703.116655526
 20
-649.5149285511
 10
706.5537159671
 20
-646.6713755723
 10
709.695773984
 20
-643.7162773813
 10
712.5319982519
 20
-640.6598208138
 10
715.052611718
 20
-637.5125421088
 10
717.2489253057
 20
-634.2852905878
 10
719.113367867
 20
-630.9891912556
 10
720.6395122821
 20
-627.6356064492
 10
721.8220976152
 20
-624.2360966703
 10
722.6570472494
 20
-620.8023807334
 10
723.1414829406
 20
-617.3462953685
 10
723.2737347385
 20
-613.8797544179
 10
723.0533467438
 20
-610.4147077664
 10
722.4810786795
 20
-606.9631001476
 10
721.5589032722
 20
-603.5368299681
 10
720.2899994517
 20
-600.1477082909
 10
718.6787413921
 20
-596.8074181206
 10
716.7306834339
 20
-593.5274741293
 10
714.4525409363
 20
-590.3191829635
 10
711.8521671286
 20
-587.1936042674
 10
708.938526038
 20
-584.1615125583
 10
705.7216615888
 20
-581.2333600845
 10
702.2126629792
 20
-578.4192407941
 10
698.4236264544
 20
-575.7288555393
 10
694.3676136082
 20
-573.1714786355
 10
690.0586063572
 20
-570.7559258905
 10
685.5114587419
 20
-568.4905242152
 10
680.7418457223
 20
-566.3830829184
 10
675.7662091424
 20
-564.4408667869
 10
670.6017010524
 20
-562.6705710419
 10
665.2661245815
 20
-561.0782982597
 10
659.7778725672
 20
-559.6695373344
 10
654.155864151
 20
-558.4491445568
 10
648.4194795606
 20
-557.4213268735
 10
642.5884933021
 20
-556.5896273851
 10
636.6830059932
 20
-555.956913132
 10
630.7233750718
 20
-555.5253652112
 10
624.7301446204
 20
-555.296471258
 10
618.723974546
 20
-555.2710203171
 10
612.7255693611
 20
-555.4491001232
 10
606.7556068109
 20
-555.8300967983
 10
600.8346665931
 20
-556.412696968
 10
594.9831594152
 20
-557.1948922888
 10
589.2212566347
 20
-558.1739863714
 10
583.5688207241
 20
-559.3466040756
 10
578.045336801
 20
-560.7087031453
 10
572.6698454586
 20
-562.2555881429
 10
567.4608771294
 20
-563.9819266352
 10
562.436388206
 20
-565.8817675759
 10
557.6136991429
 20
-567.9485618197
 10
553.0094347482
 20
-570.1751846986
 10
548.6394668752
 20
-572.5539605824
  0
ELLIPSE
  5
BB
330
1F
100
AcDbEntity
  8
0
  6
Continuous
 62
     7
370
    25
100
AcDbEllipse
 10
620.9764905905
 20
-437.0921600853
 30
0.0
 11
124.6322337611724
 21
-23.33068253640289
 31
0.0
210
0.0
220
0.0
230
1.0
 40
0.4106849769
 41
0.0767277489784214
 42
3.21832040256824
  0
LWPOLYLINE
  5
BC
330
1F
100
AcDbEntity
  8
0
  6
Continuous
 62
     7
370
    25
100
AcDbPolyline
 90
       49
 70
   128
 43
0.0
 10
609.3229627897
 20
-188.2906311124
 10
613.5222100821
 20
-188.7272244598
 10
617.9601005263
 20
-189.3072175792
 10
622.6240544397
 20
-190.0289664171
 10
627.5008513382
 20
-190.8904250981
 10
632.5766674111
 20
-191.8891517238
 10
637.8371147063
 20
-193.0223152952
 10
643.2672819144
 20
-194.286703737
 10
648.8517766366
 20
-195.6787330028
 10
654.5747690157
 20
-197.1944572344
 10
660.4200366081
 20
-198.8295799468
 10
666.3710103678
 20
-200.579466207
 10
672.410821613
 20
-202.4391557723
 10
678.5223498426
 20
-204.4033771506
 10
684.6882712658
 20
-206.4665625429
 10
690.8911079084
 20
-208.6228636261
 10
697.1132771562
 20
-210.8661681306
 10
703.3371415942
 20
-213.1901171659
 10
709.5450590026
 20
-215.588123246
 10
715.719432365
 20
-218.0533889623
 10
721.8427597492
 20
-220.578926251
 10
727.8976839186
 20
-223.1575762026
 10
733.8670415328
 20
-225.7820293533
 10
739.7339117989
 20
-228.4448464058
 10
745.4816644359
 20
-231.1384793157
 10
751.0940068144
 20
-233.8552926879
 10
756.5550301402
 20
-236.5875854197
 10
761.8492545493
 20
-239.3276125306
 10
766.9616729874
 20
-242.0676071159
 10
771.8777937492
 20
-244.7998023634
 10
776.583681556
 20
-247.5164535687
 10
781.0659970577
 20
-250.209860089
 10
785.312034644
 20
-252.8723871706
 10
789.30975846
 20
-255.4964875915
 10
793.0478365233
 20
-258.0747230538
 10
796.5156728453
 20
-260.5997852689
 10
799.7034374674
 20
-263.0645166738
 10
802.6020943244
 20
-265.4619307195
 10
805.2034268584
 20
-267.7852316753
 10
807.5000613098
 20
-270.0278338923
 10
809.4854876186
 20
-272.1833804709
 10
811.1540778784
 20
-274.2457612801
 10
812.5011022887
 20
-276.2091302774
 10
813.5227425625
 20
-278.0679220801
 10
814.2161027494
 20
-279.8168677408
 10
814.5792174447
 20
-281.4510096832
 10
814.6110573603
 20
-282.9657157542
 10
814.3115322426
 20
-284.356692355
 10
814.2473039268
 20
-284.5307620805
  0
LWPOLYLINE
  5
BD
330
1F
100
AcDbEntity
  8
0
  6
Continuous
 62
     7
370
    25
100
AcDbPolyline
 90
       13
 70
   128
 43
0.0
 10
581.1753169493
 20
-194.1015141221
 10
581.7411297482
 20
-193.0122795914
 10
582.6999009399
 20
-191.8802286528
 10
583.9846844673
 20
-190.8826399533
 10
585.591838472
 20
-190.0223412664
 10
587.5168073014
 20
-189.3017712023
 10
589.7541344222
 20
-188.722972295
 10
592.2974778876
 20
-188.287585213
 10
595.1396283142
 20
-187.9968441082
 10
598.2725293178
 20
-187.8515731179
 10
601.6873003502
 20
-187.8521840285
 10
605.3742618718
 20
-187.9986751083
 10
609.3229627897
 20
-188.2906311124
  0
ENDSEC
  0
SECTION
  2
OBJECTS
  0
DICTIONARY
  5
C
330
0
100
AcDbDictionary
281
     1
  3
ACAD_GROUP
350
D
  3
ACAD_LAYOUT
350
1A
  3
ACAD_MLINESTYLE
350
17
  3
ACAD_PLOTSETTINGS
350
19
  3
ACAD_PLOTSTYLENAME
350
E
  3
ACAD_SCALELIST
350
47
  3
DWGPROPS
350
BE
  0
DICTIONARY
  5
D
102
{ACAD_REACTORS
330
C
102
}
330
C
100
AcDbDictionary
281
     1
  0
DICTIONARY
  5
1A
102
{ACAD_REACTORS
330
C
102
}
330
C
100
AcDbDictionary
281
     1
  3
Layout1
350
1E
  3
Layout2
350
26
  3
Model
350
22
  0
DICTIONARY
  5
17
102
{ACAD_REACTORS
330
C
102
}
330
C
100
AcDbDictionary
281
     1
  3
Standard
350
18
  0
DICTIONARY
  5
19
102
{ACAD_REACTORS
330
C
102
}
330
C
100
AcDbDictionary
281
     1
  0
ACDBDICTIONARYWDFLT
  5
E
102
{ACAD_REACTORS
330
C
102
}
330
C
100
AcDbDictionary
281
     1
  3
Normal
350
F
100
AcDbDictionaryWithDefault
340
F
  0
DICTIONARY
  5
47
102
{ACAD_REACTORS
330
C
102
}
330
C
100
AcDbDictionary
281
     1
  3
A0
350
48
  3
A1
350
49
  3
A2
350
4A
  3
A3
350
4B
  3
A4
350
4C
  3
A5
350
4D
  3
A6
350
4E
  3
A7
350
4F
  3
A8
350
50
  3
A9
350
51
  3
B0
350
52
  3
B1
350
53
  3
B2
350
54
  3
B3
350
55
  3
B4
350
56
  3
B5
350
57
  3
B6
350
58
  3
B7
350
59
  3
B8
350
5A
  3
B9
350
5B
  3
C0
350
5C
  3
C1
350
5D
  3
C2
350
5E
  3
C3
350
5F
  3
C4
350
60
  3
C5
350
61
  3
C6
350
62
  3
C7
350
63
  3
C8
350
64
  3
C9
350
65
  3
D0
350
66
  3
D1
350
67
  3
D2
350
68
  0
XRECORD
  5
BE
102
{ACAD_REACTORS
330
C
102
}
330
C
100
AcDbXrecord
280
     1
  1
DWGPROPS COOKIE
  2

  3

  4

  6

  7

  8
b.kav
  9

300
=
301
=
302
=
303
=
304
=
305
=
306
=
307
=
308
=
309
=
 40
0.0
 41
2460682.394597963
 42
2460682.394598275
  1

 90
        0
  0
LAYOUT
  5
1E
102
{ACAD_REACTORS
330
1A
102
}
330
1A
100
AcDbPlotSettings
  1

  2
none_device
  4

  6

 40
0.0
 41
0.0
 42
0.0
 43
0.0
 44
0.0
 45
0.0
 46
0.0
 47
0.0
 48
0.0
 49
0.0
140
0.0
141
0.0
142
1.0
143
1.0
 70
   688
 72
     1
 73
     0
 74
     5
  7

 75
    16
147
1.0
148
0.0
149
0.0
100
AcDbLayout
  1
Layout1
 70
     1
 71
     1
 10
0.0
 20
0.0
 11
420.0
 21
297.0
 12
0.0
 22
0.0
 32
0.0
 14
1.0000000000E+20
 24
1.0000000000E+20
 34
1.0000000000E+20
 15
-1.0000000000E+20
 25
-1.0000000000E+20
 35
-1.0000000000E+20
146
0.0
 13
0.0
 23
0.0
 33
0.0
 16
1.0
 26
0.0
 36
0.0
 17
0.0
 27
1.0
 37
0.0
 76
     0
330
1B
  0
LAYOUT
  5
26
102
{ACAD_REACTORS
330
1A
102
}
330
1A
100
AcDbPlotSettings
  1

  2
none_device
  4

  6

 40
0.0
 41
0.0
 42
0.0
 43
0.0
 44
0.0
 45
0.0
 46
0.0
 47
0.0
 48
0.0
 49
0.0
140
0.0
141
0.0
142
1.0
143
1.0
 70
   688
 72
     1
 73
     0
 74
     5
  7

 75
    16
147
1.0
148
0.0
149
0.0
100
AcDbLayout
  1
Layout2
 70
     1
 71
     2
 10
0.0
 20
0.0
 11
0.0
 21
0.0
 12
0.0
 22
0.0
 32
0.0
 14
0.0
 24
0.0
 34
0.0
 15
0.0
 25
0.0
 35
0.0
146
0.0
 13
0.0
 23
0.0
 33
0.0
 16
1.0
 26
0.0
 36
0.0
 17
0.0
 27
1.0
 37
0.0
 76
     0
330
23
  0
LAYOUT
  5
22
102
{ACAD_REACTORS
330
1A
102
}
330
1A
100
AcDbPlotSettings
  1

  2
none_device
  4
Letter_(8.50_x_11.00_Inches)
  6

 40
6.35
 41
6.35
 42
6.35000508
 43
6.35000508
 44
215.9
 45
279.4
 46
0.0
 47
0.0
 48
0.0
 49
0.0
140
0.0
141
0.0
142
1.0
143
1.0
 70
  1712
 72
     1
 73
     0
 74
     0
  7

 75
     0
147
1.0
148
0.0
149
0.0
100
AcDbLayout
  1
Model
 70
     1
 71
     0
 10
0.0
 20
0.0
 11
279.4
 21
215.9
 12
0.0
 22
0.0
 32
0.0
 14
0.0
 24
0.0
 34
0.0
 15
279.4
 25
215.9
 35
0.0
146
0.0
 13
0.0
 23
0.0
 33
0.0
 16
1.0
 26
0.0
 36
0.0
 17
0.0
 27
1.0
 37
0.0
 76
     0
330
1F
331
29
  0
MLINESTYLE
  5
18
102
{ACAD_REACTORS
330
17
102
}
330
17
100
AcDbMlineStyle
  2
Standard
 70
     0
  3

 62
   256
 51
90.0
 52
90.0
 71
     2
 49
0.5
 62
   256
  6
BYLAYER
 49
-0.5
 62
   256
  6
BYLAYER
  0
ACDBPLACEHOLDER
  5
F
102
{ACAD_REACTORS
330
E
102
}
330
E
  0
SCALE
  5
48
102
{ACAD_REACTORS
330
47
102
}
330
47
100
AcDbScale
 70
     0
300
1:1
140
1.0
141
1.0
290
     1
  0
SCALE
  5
49
102
{ACAD_REACTORS
330
47
102
}
330
47
100
AcDbScale
 70
     0
300
1:2
140
1.0
141
2.0
290
     0
  0
SCALE
  5
4A
102
{ACAD_REACTORS
330
47
102
}
330
47
100
AcDbScale
 70
     0
300
1:4
140
1.0
141
4.0
290
     0
  0
SCALE
  5
4B
102
{ACAD_REACTORS
330
47
102
}
330
47
100
AcDbScale
 70
     0
300
1:5
140
1.0
141
5.0
290
     0
  0
SCALE
  5
4C
102
{ACAD_REACTORS
330
47
102
}
330
47
100
AcDbScale
 70
     0
300
1:8
140
1.0
141
8.0
290
     0
  0
SCALE
  5
4D
102
{ACAD_REACTORS
330
47
102
}
330
47
100
AcDbScale
 70
     0
300
1:10
140
1.0
141
10.0
290
     0
  0
SCALE
  5
4E
102
{ACAD_REACTORS
330
47
102
}
330
47
100
AcDbScale
 70
     0
300
1:16
140
1.0
141
16.0
290
     0
  0
SCALE
  5
4F
102
{ACAD_REACTORS
330
47
102
}
330
47
100
AcDbScale
 70
     0
300
1:20
140
1.0
141
20.0
290
     0
  0
SCALE
  5
50
102
{ACAD_REACTORS
330
47
102
}
330
47
100
AcDbScale
 70
     0
300
1:30
140
1.0
141
30.0
290
     0
  0
SCALE
  5
51
102
{ACAD_REACTORS
330
47
102
}
330
47
100
AcDbScale
 70
     0
300
1:40
140
1.0
141
40.0
290
     0
  0
SCALE
  5
52
102
{ACAD_REACTORS
330
47
102
}
330
47
100
AcDbScale
 70
     0
300
1:50
140
1.0
141
50.0
290
     0
  0
SCALE
  5
53
102
{ACAD_REACTORS
330
47
102
}
330
47
100
AcDbScale
 70
     0
300
1:100
140
1.0
141
100.0
290
     0
  0
SCALE
  5
54
102
{ACAD_REACTORS
330
47
102
}
330
47
100
AcDbScale
 70
     0
300
2:1
140
2.0
141
1.0
290
     0
  0
SCALE
  5
55
102
{ACAD_REACTORS
330
47
102
}
330
47
100
AcDbScale
 70
     0
300
4:1
140
4.0
141
1.0
290
     0
  0
SCALE
  5
56
102
{ACAD_REACTORS
330
47
102
}
330
47
100
AcDbScale
 70
     0
300
8:1
140
8.0
141
1.0
290
     0
  0
SCALE
  5
57
102
{ACAD_REACTORS
330
47
102
}
330
47
100
AcDbScale
 70
     0
300
10:1
140
10.0
141
1.0
290
     0
  0
SCALE
  5
58
102
{ACAD_REACTORS
330
47
102
}
330
47
100
AcDbScale
 70
     0
300
100:1
140
100.0
141
1.0
290
     0
  0
SCALE
  5
59
102
{ACAD_REACTORS
330
47
102
}
330
47
100
AcDbScale
 70
     0
300
1/128" = 1'-0"
140
0.0078125
141
12.0
290
     0
  0
SCALE
  5
5A
102
{ACAD_REACTORS
330
47
102
}
330
47
100
AcDbScale
 70
     0
300
1/64" = 1'-0"
140
0.015625
141
12.0
290
     0
  0
SCALE
  5
5B
102
{ACAD_REACTORS
330
47
102
}
330
47
100
AcDbScale
 70
     0
300
1/32" = 1'-0"
140
0.03125
141
12.0
290
     0
  0
SCALE
  5
5C
102
{ACAD_REACTORS
330
47
102
}
330
47
100
AcDbScale
 70
     0
300
1/16" = 1'-0"
140
0.0625
141
12.0
290
     0
  0
SCALE
  5
5D
102
{ACAD_REACTORS
330
47
102
}
330
47
100
AcDbScale
 70
     0
300
3/32" = 1'-0"
140
0.09375
141
12.0
290
     0
  0
SCALE
  5
5E
102
{ACAD_REACTORS
330
47
102
}
330
47
100
AcDbScale
 70
     0
300
1/8" = 1'-0"
140
0.125
141
12.0
290
     0
  0
SCALE
  5
5F
102
{ACAD_REACTORS
330
47
102
}
330
47
100
AcDbScale
 70
     0
300
3/16" = 1'-0"
140
0.1875
141
12.0
290
     0
  0
SCALE
  5
60
102
{ACAD_REACTORS
330
47
102
}
330
47
100
AcDbScale
 70
     0
300
1/4" = 1'-0"
140
0.25
141
12.0
290
     0
  0
SCALE
  5
61
102
{ACAD_REACTORS
330
47
102
}
330
47
100
AcDbScale
 70
     0
300
3/8" = 1'-0"
140
0.375
141
12.0
290
     0
  0
SCALE
  5
62
102
{ACAD_REACTORS
330
47
102
}
330
47
100
AcDbScale
 70
     0
300
1/2" = 1'-0"
140
0.5
141
12.0
290
     0
  0
SCALE
  5
63
102
{ACAD_REACTORS
330
47
102
}
330
47
100
AcDbScale
 70
     0
300
3/4" = 1'-0"
140
0.75
141
12.0
290
     0
  0
SCALE
  5
64
102
{ACAD_REACTORS
330
47
102
}
330
47
100
AcDbScale
 70
     0
300
1" = 1'-0"
140
1.0
141
12.0
290
     0
  0
SCALE
  5
65
102
{ACAD_REACTORS
330
47
102
}
330
47
100
AcDbScale
 70
     0
300
1-1/2" = 1'-0"
140
1.5
141
12.0
290
     0
  0
SCALE
  5
66
102
{ACAD_REACTORS
330
47
102
}
330
47
100
AcDbScale
 70
     0
300
3" = 1'-0"
140
3.0
141
12.0
290
     0
  0
SCALE
  5
67
102
{ACAD_REACTORS
330
47
102
}
330
47
100
AcDbScale
 70
     0
300
6" = 1'-0"
140
6.0
141
12.0
290
     0
  0
SCALE
  5
68
102
{ACAD_REACTORS
330
47
102
}
330
47
100
AcDbScale
 70
     0
300
1'-0" = 1'-0"
140
12.0
141
12.0
290
     0
  0
ENDSEC
  0
EOF
